Разучим соло к песням
Музыка Билеты на концерты | mp3, видео, фото | Музыкальные инструменты | Звуковое оборудование | RSSRSS    
Учимся играть соло к песням. Урок игры на гитаре №10 Пятница, 22 Сентября 2017
гитара бой

Практикуемся в игре соло, разучив их партии для конкретных музыкальных произведений, простых песен, которые хорошо известны и всегда востребованы. Знать и уметь играть их соло, полагаем, будет интересно если не каждому, то очень многим любителям гитарной музыки


Самоучитель игры боем на гитаре

гитарные аккорды

Скачать самоучитель игры на гитаре.

Как научиться играть песни.

Аккорды под простые песни.



настройка гитары

тюнер для настройки гитары.

Октавы на гитаре.

Квинтовый круг и сочинение песен.



гитара для чайников

Каким перебором играть песню.

Словарь музыкальных терминов.

Онлайн самоучитель игры на гитаре.




Урок 10

Разучим соло к песням «Никто не услышит» («Ой-йо»), «В траве сидел кузнечик» и «Smoke on the water»


Квинтовый круг и его применение       Ноты гамм мажорных и минорных тональностей       Последовательности аккордов тональностей


песня ой йо никто не услышит на гитареЦель этого урока - освоить несколько несложных соло к известным песням, понять как читаются распространённые варианты схем обозначения последовательности игры на 6-ти струнной гитаре нот партий соло.

На прошлых уроках мы практиковались в игре медиатором нот, гамм и пентатоник. Что называется, набили руку и в совершенстве овладели техникой игры этим простым и незаменимым предметом. Самое время разучить несколько соло к таким знакомым всем песням.

  1. Соло песни «Никто не услышит» («Ой-йо»), гр. Чайф


    Настройте гитару по камертону, например, по этому,

    включите cкачать mp3mp3 песни «Никто не услышит (Ой-йо)» и играйте соло по схеме:
    E|------------------------------------------------------------------------|
    B|-----------8-----------8----------------------8------------------------|
    G|---9-10---10-9-7----7----------7-9-10--10-9-7---------------------|
    D|----------------------------10-9>10-------------------9-10----------|
    A|------------------------------------------------------------------------|
    E|------------------------------------------------------------------------|
    
    > - смещение пальца прижимающего струну после извлечения звука на другой лад.
    

    На схеме показана последовательность игры нот на ладах струн. Струны - это ----, наверху первая (тонкая), внизу - шестая.
    Цифрами на струнах обозначены лады на которых нужно, играя ноты, прижимать струны в последовательности слева направо.
    Т.е. играем по этой схеме так: на 3-ей струне на 9, затем на 10-ом ладу, потом на 2-ой струне на 8-ом ладу и т.д.

    Длительность нот нужно определять, полагаясь на слух.

    гитара видео
    Видео соло песни «Никто не услышит (Ой-йо)», гр. Чайф




    Текст песни «Никто не услышит» с аккордами



  2. Соло песни «В траве сидел кузнечик»


    Текст песни «В траве сидел кузнечик» с аккордами

    Включите cкачать mp3mp3 песни «В траве сидел кузнечик» и играйте соло по схеме:
    Начало соло:
    E|----5--0--5--0--5--4-4------4--0--4--0--4--5-5------5--0--5--0--5--4-4------4--0--4--0--4--5----|
    B|-----------------------------------------------------------------------------------------------------------|
    G|-----------------------------------------------------------------------------------------------------------|
    D|-----------------------------------------------------------------------------------------------------------|
    A|-----------------------------------------------------------------------------------------------------------|
    E|-----------------------------------------------------------------------------------------------------------|
     
    Продолжение:
    E|----5--7--7-7-7---7--8--8-8-8---8-8--7--5--4--5-5------5--7--7-7-7---7--8--8-8-8---8-8--7--5--4--5--|
    B|-----------------------------------------------------------------------------------------------------------------|
    G|-----------------------------------------------------------------------------------------------------------------|
    D|-----------------------------------------------------------------------------------------------------------------|
    A|-----------------------------------------------------------------------------------------------------------------|
    E|-----------------------------------------------------------------------------------------------------------------|
    

    соло
    Видео соло песни «В траве сидел кузнечик» в нормальном и замедленном темпе




    соло песни про кузнечика
    Видео соло песни «В траве сидел кузнечик» медленно





    Видео соло песни «В траве сидел кузнечик» поверх музыки ритма




  3. Соло и импровизация песни «Smoke on the water», гр. Deep Purple


    Играйте соло по схеме:
              Em  G  A      Em G  A# A     Em G  A     G Em
    E||------------------------------------------------------------------|
    B||------------------------------------------------------------------|
    G||------------------------------------------------------------------|
    D||------------------------------------------------------------------|
    A||----2---5---7------2-5--8-7-----2---5---7-----5--2-----------|
    E||----0---3---5------0-3--6-5-----0---3---5-----3--0-----------|
    

    Соло играется одновременно на 5 и 6-ой струне щипковыми движениями указательного и большого пальцев правой руки.
    Также разучите упрощённый вариант игры песни «Smoke on the water» аккордами: Em G A     Em G A# A     Em G A     G Em


    Видео импровизации песни «Smoke on the water», «Deep Purple»




Есть вопросы? Задайте





(год рождения)


Что ещё есть на этом сайте





О гитаре: теория, октавы, настройка, термины...

Ритм и соло на гитаре



Другая авторская музыка

Комментировать


Видео, как играть на гитаре легкую песню и соло к ней

видео аккорды для гитары песни


Оборот музыкальной индустрии в России немного более 1 млрд. руб., в мире в целом - 160 млрд. долл. в год , также не менее интересно, что

вверх
В начало страницы © 2017 www.otsema.ru