Ещё соло к песням
Музыка Билеты на концерты | mp3, видео, фото | Музыкальные инструменты | Звуковое оборудование | RSSRSS    
Разучим соло к другим песням. Урок игры на гитаре №11 Пятница, 28 Апреля 2017
гитара бой

Продолжаем расширять свой репертуар соло популярных песен, запомним и отработаем игру ещё нескольких из них. Зная аккорды к этим песням под гитару, будем играть поверх них соло медиатором


Уроки игры боем на гитаре

гитара и самоучитель игры на ней

Игра боем на гитаре в видео.

Настройка 6 струнной гитары онлайн.

Гитарные аккорды в картинках.



гитара для начинающих

Лучший самоучитель гитары.

Обучение игры на гитаре.

Cловарь музыкальных терминов.



песни собственного сочинения

Аккорды простых песен.

Квинтовый круг тональностей

Какие песни играть перебором.




Урок 11

Запомним простые соло к песням «Джин и Тоник», «Как на войне», «Пачка сигарет» и «Перекресток»


Квинтовый круг и его применение       Ноты гамм мажорных и минорных тональностей       Последовательности аккордов тональностей


простое соло на гитареЦель этого урока - расширить репертуар исполняемых вами музыкальных произведений, разучить ещё несколько соло к популярным песням, отработать технику игры медиатором.

Настройте гитару, например, по камертону.

Играйте соло по схемам приведённым ниже. Запомните эти соло.

Посмотрите аккорды песен на этом сайте, разучите их и запишите ритм музыки песен любым доступным вам способом (на телефон, компьютер...). Затем играйте разученные ранее соло поверх записанной музыки.

Научившись играть соло по схемам, пробуйте импровизировать, играть соло по пентатоникам, гаммам, на слух.



  1. Соло песни «Джин и Тоник», группы «Зимовье зверей»


    Текст и аккорды песни «Джин и Тоник»
    
    1|----------55-3-------------------------------55-3-----------------3-------|
    2|--66-66----------55-55-55-3-5-6--66-66--------------55-55-5---6-3--|
    3|----------------3------------------------------------33--------------------|
    4|----------------------------------------------------------------------------|
    5|----------------------------------------------------------------------------|
    6|----------------------------------------------------------------------------|
    

    Ноты на ладах играются по схеме последовательно слева направо. 1 - сверху - это самая тонкая, первая струна, снизу - самая толстая, шестая.
    Цифры на струнах - это номера ладов, на которых прижимаются струны.
    По этой схеме играем так так: дважды на 2-ой струне на 6-ом ладу, затем опять дважды на 2-ой струне на 6-ом ладу,
    далее дважды на 1-ой струне на 5-ом ладу, потом на 1-ой струне на 3-ем ладу и т.д.



  2. Соло песни «Как на войне», группы «Агата Кристи»


    Текст и аккорды песни «Как на войне»
    1|---0--------3-1-0-------------------------0---------3-1-0--------0-4-5--|
    2|-----1-0-----------3-1-3-0--0-1-0---------1-0-----------3-1-3----------|
    3|-2--------0---------------------------2-----------0------------------------|
    4|-----------------------------------------2----------------------------------|
    5|----------------------------------------------------------------------------|
    6|----------------------------------------------------------------------------|
    


  3. Соло песни «Пачка сигарет», группы «Кино»


    Текст и аккорды песни «Пачка сигарет»
    Вариант 1
    
    1|------7-5-0-------3-0--------5---------|-7-5-0-------3-0--------5-----------|
    2|--0----------1---------1-3------3-1-0--|--------1---------1-3------3-1-0----|
    3|----5-------------------------------------|--------------------------------------|
    4|------------------------------------------|--------------------------------------|
    5|------------------------------------------|--------------------------------------|
    6|------------------------------------------|--------------------------------------|
    
    
    Вариант 2
    
    1|-------7-5-----3--------5----------------|
    2|-----------5-----5---3---7---------------|
    3|--4-5--------5-----5--------5-4---------|
    4|------------------------------------------|
    5|------------------------------------------|
    6|------------------------------------------|
    
    
    1|--7-5-----3---------5-------------------|
    2|-------5-----5----3---7-----------------|
    3|----------5-----5---------5-4-----------|
    4|------------------------------------------|
    5|------------------------------------------|
    6|------------------------------------------|
    
    

  4. Соло песни «Перекресток», группы «Чиж и Ко»


    Текст и аккорды песни «Перекресток»
     > - смещение пальца прижимающего струну после извлечения звука на другой лад 
    
     1|-------------------5---|-4>5-----------------------|----------------5-----
     2|------5-6-5-6-8------|--------8--------------------|-----5-6-5-6-8------
     3|---7-------------------|-----------5>6-------------|---7------------------
     4|-7---------------------|------------------7---------|-7--------------------
     5|----------------------------------------------------------------------------
     6|----------------------------------------------------------------------------
     
     1|-7>8-8-8-7-6-5------|-7>8-5--------------------|------------------------------|
     2|-----------------------|----------6-----------------|-7>8-6---9>10-9-8-5>6---|
     3|-----------------------|------------7-6-5----------|---------7-------------------7|
     4|-----------------------|-------------------7/8-----|-------------------------------|
     5|------------------------------------------------------------------------------------|
     6|------------------------------------------------------------------------------------|
     
     1|------------------5----|-4>5-----------------------|-------------------5--
     2|------5-6-5-6-8------|-------8---------------------|------5-6-5-6-8-----
     3|---7-------------------|----------5>6--------------|---7------------------
     4|-7---------------------|-----------------7----------|-7--------------------
     5|----------------------------------------------------------------------------
     6|----------------------------------------------------------------------------
     
     1|------------------5---|-4>5---------------------|-----------------5----
     2|------5-6-5-6-8-----|-------8-------------------|-----5-6-5-6-8------
     3|---7------------------|---------5>6-------------|---7------------------
     4|-7--------------------|--------------7-----------|-7--------------------
     5|-------------------------------------------------------------------------
     6|-------------------------------------------------------------------------
     
     1|-7>8-8-8-7-6-5-----|-7/8-5-------------------|-------------------------------|
     2|-----------------------|-------6-----------------|-7>8-6----9>10-9-8-5>6---|
     3|-----------------------|---------7-6-5----------|----------7-------------------7|
     4|-----------------------|---------------7>8------|-------------------------------|
     5|----------------------------------------------------------------------------------|
     6|----------------------------------------------------------------------------------|
     


Есть вопросы? Задайте





(год рождения)


Что ещё есть на этом сайте





О гитаре: теория, октавы, настройка, термины...



Вопросы и ответы

Расширенный список вопросов и ответов о музыке, гитаре, звукозаписи и работе со звуком, постановке голоса... Вы спросите - мы ответим!


Видео, как играть на гитаре легкую песню и соло к ней


Умное Оборудование, продаю оборудования для производства обуви.|Корпоративный Выездной банкет.|Образование: техникум кооперативный Опыт работы: домработницей семьях уборка и работа на огороде

Оборот музыкальной индустрии в России немного более 1 млрд. руб., в мире в целом - 160 млрд. долл. в год , также не менее интересно, что

вверх
В начало страницы © 2017 www.otsema.ru